  0
SECTION
  2
HEADER
  9
$ACADVER
  1
AC1015
  9
$ACADMAINTVER
 70
     6
  9
$DWGCODEPAGE
  3
ANSI_1252
  9
$INSBASE
 10
0.0
 20
0.0
 30
0.0
  9
$EXTMIN
 10
-6.1
 20
-6.1
 30
0.0
  9
$EXTMAX
 10
28.3
 20
6.1
 30
0.0
  9
$LIMMIN
 10
0.0
 20
0.0
  9
$LIMMAX
 10
420.0
 20
297.0
  9
$ORTHOMODE
 70
     0
  9
$REGENMODE
 70
     1
  9
$FILLMODE
 70
     1
  9
$QTEXTMODE
 70
     0
  9
$MIRRTEXT
 70
     1
  9
$LTSCALE
 40
1.0
  9
$ATTMODE
 70
     1
  9
$TEXTSIZE
 40
3.5
  9
$TRACEWID
 40
1.0
  9
$TEXTSTYLE
  7
Standard
  9
$CLAYER
  8
0
  9
$CELTYPE
  6
ByLayer
  9
$CECOLOR
 62
   256
  9
$CELTSCALE
 40
1.0
  9
$DISPSILH
 70
     0
  9
$DIMSCALE
 40
1.0
  9
$DIMASZ
 40
3.302
  9
$DIMEXO
 40
1.0
  9
$DIMDLI
 40
3.75
  9
$DIMRND
 40
0.0
  9
$DIMDLE
 40
0.0
  9
$DIMEXE
 40
1.0
  9
$DIMTP
 40
0.0
  9
$DIMTM
 40
0.0
  9
$DIMTXT
 40
3.5
  9
$DIMCEN
 40
2.5
  9
$DIMTSZ
 40
0.0
  9
$DIMTOL
 70
     0
  9
$DIMLIM
 70
     0
  9
$DIMTIH
 70
     1
  9
$DIMTOH
 70
     1
  9
$DIMSE1
 70
     0
  9
$DIMSE2
 70
     0
  9
$DIMTAD
 70
     1
  9
$DIMZIN
 70
     1
  9
$DIMBLK
  1

  9
$DIMASO
 70
     1
  9
$DIMSHO
 70
     1
  9
$DIMPOST
  1

  9
$DIMAPOST
  1

  9
$DIMALT
 70
     0
  9
$DIMALTD
 70
     3
  9
$DIMALTF
 40
0.0393700787
  9
$DIMLFAC
 40
1.0
  9
$DIMTOFL
 70
     1
  9
$DIMTVP
 40
0.0
  9
$DIMTIX
 70
     0
  9
$DIMSOXD
 70
     0
  9
$DIMSAH
 70
     0
  9
$DIMBLK1
  1

  9
$DIMBLK2
  1

  9
$DIMSTYLE
  2
ISO-25
  9
$DIMCLRD
 70
     0
  9
$DIMCLRE
 70
     0
  9
$DIMCLRT
 70
     0
  9
$DIMTFAC
 40
1.0
  9
$DIMGAP
 40
1.524
  9
$DIMJUST
 70
     0
  9
$DIMSD1
 70
     0
  9
$DIMSD2
 70
     0
  9
$DIMTOLJ
 70
     0
  9
$DIMTZIN
 70
     1
  9
$DIMALTZ
 70
     0
  9
$DIMALTTZ
 70
     0
  9
$DIMUPT
 70
     0
  9
$DIMDEC
 70
     2
  9
$DIMTDEC
 70
     2
  9
$DIMALTU
 70
     2
  9
$DIMALTTD
 70
     3
  9
$DIMTXSTY
  7
Standard
  9
$DIMAUNIT
 70
     0
  9
$DIMADEC
 70
     2
  9
$DIMALTRND
 40
0.0
  9
$DIMAZIN
 70
     0
  9
$DIMDSEP
 70
    44
  9
$DIMATFIT
 70
     3
  9
$DIMFRAC
 70
     0
  9
$DIMLDRBLK
  1

  9
$DIMLUNIT
 70
     2
  9
$DIMLWD
 70
    -2
  9
$DIMLWE
 70
    -2
  9
$DIMTMOVE
 70
     0
  9
$LUNITS
 70
     2
  9
$LUPREC
 70
     2
  9
$SKETCHINC
 40
1.0
  9
$FILLETRAD
 40
10.0
  9
$AUNITS
 70
     0
  9
$AUPREC
 70
     2
  9
$MENU
  1
.
  9
$ELEVATION
 40
0.0
  9
$PELEVATION
 40
0.0
  9
$THICKNESS
 40
0.0
  9
$LIMCHECK
 70
     0
  9
$CHAMFERA
 40
0.0
  9
$CHAMFERB
 40
0.0
  9
$CHAMFERC
 40
0.0
  9
$CHAMFERD
 40
0.0
  9
$SKPOLY
 70
     0
  9
$TDCREATE
 40
2458862.401613681
  9
$TDUCREATE
 40
2458862.401613681
  9
$TDUPDATE
 40
2458862.401644722
  9
$TDUUPDATE
 40
2458862.401644722
  9
$TDINDWG
 40
0.0000000116
  9
$TDUSRTIMER
 40
0.0000000116
  9
$USRTIMER
 70
     1
  9
$ANGBASE
 50
0.0
  9
$ANGDIR
 70
     0
  9
$PDMODE
 70
     0
  9
$PDSIZE
 40
-1.0
  9
$PLINEWID
 40
0.0
  9
$SPLFRAME
 70
     0
  9
$SPLINETYPE
 70
     6
  9
$SPLINESEGS
 70
     8
  9
$HANDSEED
  5
1AC
  9
$SURFTAB1
 70
     6
  9
$SURFTAB2
 70
     6
  9
$SURFTYPE
 70
     6
  9
$SURFU
 70
     6
  9
$SURFV
 70
     6
  9
$UCSBASE
  2

  9
$UCSNAME
  2

  9
$UCSORG
 10
0.0
 20
0.0
 30
0.0
  9
$UCSXDIR
 10
1.0
 20
0.0
 30
0.0
  9
$UCSYDIR
 10
0.0
 20
1.0
 30
0.0
  9
$UCSORTHOREF
  2

  9
$UCSORTHOVIEW
 70
     0
  9
$UCSORGTOP
 10
0.0
 20
0.0
 30
0.0
  9
$UCSORGBOTTOM
 10
0.0
 20
0.0
 30
0.0
  9
$UCSORGLEFT
 10
0.0
 20
0.0
 30
0.0
  9
$UCSORGRIGHT
 10
0.0
 20
0.0
 30
0.0
  9
$UCSORGFRONT
 10
0.0
 20
0.0
 30
0.0
  9
$UCSORGBACK
 10
0.0
 20
0.0
 30
0.0
  9
$PUCSBASE
  2

  9
$PUCSNAME
  2

  9
$PUCSORG
 10
0.0
 20
0.0
 30
0.0
  9
$PUCSXDIR
 10
1.0
 20
0.0
 30
0.0
  9
$PUCSYDIR
 10
0.0
 20
1.0
 30
0.0
  9
$PUCSORTHOREF
  2

  9
$PUCSORTHOVIEW
 70
     0
  9
$PUCSORGTOP
 10
0.0
 20
0.0
 30
0.0
  9
$PUCSORGBOTTOM
 10
0.0
 20
0.0
 30
0.0
  9
$PUCSORGLEFT
 10
0.0
 20
0.0
 30
0.0
  9
$PUCSORGRIGHT
 10
0.0
 20
0.0
 30
0.0
  9
$PUCSORGFRONT
 10
0.0
 20
0.0
 30
0.0
  9
$PUCSORGBACK
 10
0.0
 20
0.0
 30
0.0
  9
$USERI1
 70
     0
  9
$USERI2
 70
     0
  9
$USERI3
 70
     0
  9
$USERI4
 70
     0
  9
$USERI5
 70
     0
  9
$USERR1
 40
0.0
  9
$USERR2
 40
0.0
  9
$USERR3
 40
0.0
  9
$USERR4
 40
0.0
  9
$USERR5
 40
0.0
  9
$WORLDVIEW
 70
     1
  9
$SHADEDGE
 70
     3
  9
$SHADEDIF
 70
    70
  9
$TILEMODE
 70
     1
  9
$MAXACTVP
 70
    64
  9
$PINSBASE
 10
0.0
 20
0.0
 30
0.0
  9
$PLIMCHECK
 70
     0
  9
$PEXTMIN
 10
-171.0
 20
-6.1
 30
0.0
  9
$PEXTMAX
 10
171.0
 20
28.3
 30
0.0
  9
$PLIMMIN
 10
-197.6147859922
 20
-16.0805447471
  9
$PLIMMAX
 10
197.6147859922
 20
263.3747081712
  9
$UNITMODE
 70
     0
  9
$VISRETAIN
 70
     1
  9
$PLINEGEN
 70
     0
  9
$PSLTSCALE
 70
     1
  9
$TREEDEPTH
 70
  3020
  9
$CMLSTYLE
  2
Standard
  9
$CMLJUST
 70
     0
  9
$CMLSCALE
 40
20.0
  9
$PROXYGRAPHICS
 70
     1
  9
$MEASUREMENT
 70
     1
  9
$CELWEIGHT
370
    -1
  9
$ENDCAPS
280
     0
  9
$JOINSTYLE
280
     0
  9
$LWDISPLAY
290
     1
  9
$INSUNITS
 70
     4
  9
$HYPERLINKBASE
  1

  9
$STYLESHEET
  1

  9
$XEDIT
290
     1
  9
$CEPSNTYPE
380
     0
  9
$PSTYLEMODE
290
     1
  9
$FINGERPRINTGUID
  2
{e49d636b-cd65-45f4-84f7-36040eac387f}
  9
$VERSIONGUID
  2
{FAEB1C32-E019-11D5-929B-00C0DF256EC4}
  9
$EXTNAMES
290
     1
  9
$PSVPSCALE
 40
0.0
  9
$OLESTARTUP
290
     0
  0
ENDSEC
  0
SECTION
  2
CLASSES
  0
CLASS
  1
ACDBDICTIONARYWDFLT
  2
AcDbDictionaryWithDefault
  3
ObjectDBX Classes
 90
        0
280
     0
281
     0
  0
CLASS
  1
VISUALSTYLE
  2
AcDbVisualStyle
  3
ObjectDBX Classes
 90
     4095
280
     0
281
     0
  0
CLASS
  1
MATERIAL
  2
AcDbMaterial
  3
ObjectDBX Classes
 90
     1153
280
     0
281
     0
  0
CLASS
  1
SCALE
  2
AcDbScale
  3
ObjectDBX Classes
 90
     1153
280
     0
281
     0
  0
CLASS
  1
TABLESTYLE
  2
AcDbTableStyle
  3
ObjectDBX Classes
 90
     4095
280
     0
281
     0
  0
CLASS
  1
MLEADERSTYLE
  2
AcDbMLeaderStyle
  3
ACDB_MLEADERSTYLE_CLASS
 90
     4095
280
     0
281
     0
  0
CLASS
  1
SUN
  2
AcDbSun
  3
SCENEOE
 90
     1153
280
     0
281
     0
  0
CLASS
  1
ACDBPLACEHOLDER
  2
AcDbPlaceHolder
  3
ObjectDBX Classes
 90
        0
280
     0
281
     0
  0
CLASS
  1
LAYOUT
  2
AcDbLayout
  3
ObjectDBX Classes
 90
        0
280
     0
281
     0
  0
ENDSEC
  0
SECTION
  2
TABLES
  0
TABLE
  2
VPORT
  5
8
330
0
100
AcDbSymbolTable
 70
     1
  0
VPORT
  5
29
330
8
100
AcDbSymbolTableRecord
100
AcDbViewportTableRecord
  2
*Active
 70
     0
 10
0.0
 20
0.0
 11
1.0
 21
1.0
 12
11.1
 22
0.0
 13
0.0
 23
0.0
 14
10.0
 24
10.0
 15
10.0
 25
10.0
 16
0.0
 26
0.0
 36
1.0
 17
0.0
 27
0.0
 37
0.0
 40
12.444
 41
2.8196721311
 42
50.0
 43
0.0
 44
0.0
 50
0.0
 51
0.0
 71
     0
 72
   100
 73
     1
 74
     3
 75
     0
 76
     0
 77
     0
 78
     0
281
     0
 65
     1
110
0.0
120
0.0
130
0.0
111
1.0
121
0.0
131
0.0
112
0.0
122
1.0
132
0.0
 79
     0
146
0.0
  0
ENDTAB
  0
TABLE
  2
LTYPE
  5
5
330
0
100
AcDbSymbolTable
 70
     6
  0
LTYPE
  5
14
330
5
100
AcDbSymbolTableRecord
100
AcDbLinetypeTableRecord
  2
ByBlock
 70
     0
  3

 72
    65
 73
     0
 40
0.0
  0
LTYPE
  5
15
330
5
100
AcDbSymbolTableRecord
100
AcDbLinetypeTableRecord
  2
ByLayer
 70
     0
  3

 72
    65
 73
     0
 40
0.0
  0
LTYPE
  5
16
330
5
100
AcDbSymbolTableRecord
100
AcDbLinetypeTableRecord
  2
Continuous
 70
     0
  3
Solid line
 72
    65
 73
     0
 40
0.0
  0
LTYPE
  5
6E
330
5
100
AcDbSymbolTableRecord
100
AcDbLinetypeTableRecord
  2
HIDDEN
 70
     0
  3
Hidden __ __ __ __ __ __ __ __ __ __ __ __ __ __
 72
    65
 73
     2
 40
1.905
 49
1.27
 74
     0
 49
-0.635
 74
     0
  0
LTYPE
  5
6F
330
5
100
AcDbSymbolTableRecord
100
AcDbLinetypeTableRecord
  2
PHANTOM
 70
     0
  3
Phantom ______  __  __  ______  __  __  ______
 72
    65
 73
     6
 40
12.7
 49
6.35
 74
     0
 49
-1.27
 74
     0
 49
1.27
 74
     0
 49
-1.27
 74
     0
 49
1.27
 74
     0
 49
-1.27
 74
     0
  0
LTYPE
  5
70
330
5
100
AcDbSymbolTableRecord
100
AcDbLinetypeTableRecord
  2
CENTER
 70
     0
  3
Center ____ _ ____ _ ____ _ ____ _ ____ _ ____
 72
    65
 73
     4
 40
10.16
 49
6.35
 74
     0
 49
-1.27
 74
     0
 49
1.27
 74
     0
 49
-1.27
 74
     0
  0
LTYPE
  5
71
330
5
100
AcDbSymbolTableRecord
100
AcDbLinetypeTableRecord
  2
CENTERX2
 70
     0
  3
Center (2x) ________  __  ________  __  _____
 72
    65
 73
     4
 40
20.32
 49
12.7
 74
     0
 49
-2.54
 74
     0
 49
2.54
 74
     0
 49
-2.54
 74
     0
  0
LTYPE
  5
72
330
5
100
AcDbSymbolTableRecord
100
AcDbLinetypeTableRecord
  2
DOT2
 70
     0
  3
Dot (.5x) ........................................
 72
    65
 73
     2
 40
0.635
 49
0.0
 74
     0
 49
-0.635
 74
     0
  0
ENDTAB
  0
TABLE
  2
LAYER
  5
2
330
0
100
AcDbSymbolTable
 70
     1
  0
LAYER
  5
10
330
2
100
AcDbSymbolTableRecord
100
AcDbLayerTableRecord
  2
0
 70
     0
 62
     7
  6
Continuous
370
    -3
390
F
  0
ENDTAB
  0
TABLE
  2
STYLE
  5
3
330
0
100
AcDbSymbolTable
 70
     1
  0
STYLE
  5
11
330
3
100
AcDbSymbolTableRecord
100
AcDbTextStyleTableRecord
  2
Standard
 70
     0
 40
0.0
 41
1.0
 50
0.0
 71
     0
 42
3.5
  3
txt
  4

  0
ENDTAB
  0
TABLE
  2
VIEW
  5
6
330
0
100
AcDbSymbolTable
 70
     0
  0
ENDTAB
  0
TABLE
  2
UCS
  5
7
330
0
100
AcDbSymbolTable
 70
     0
  0
ENDTAB
  0
TABLE
  2
APPID
  5
9
330
0
100
AcDbSymbolTable
 70
     1
  0
APPID
  5
12
330
9
100
AcDbSymbolTableRecord
100
AcDbRegAppTableRecord
  2
ACAD
 70
     0
  0
ENDTAB
  0
TABLE
  2
DIMSTYLE
  5
A
330
0
100
AcDbSymbolTable
 70
     1
100
AcDbDimStyleTable
  0
DIMSTYLE
105
27
330
A
100
AcDbSymbolTableRecord
100
AcDbDimStyleTableRecord
  2
ISO-25
 70
     0
 41
2.5
 42
0.625
 43
3.75
 44
1.25
 73
     0
 74
     0
 77
     1
 78
     8
140
2.5
141
2.5
143
0.0393700787
147
0.625
171
     3
172
     1
178
     0
271
     2
272
     2
274
     3
278
    44
283
     0
284
     8
340
11
  0
ENDTAB
  0
TABLE
  2
BLOCK_RECORD
  5
1
330
0
100
AcDbSymbolTable
 70
     7
  0
BLOCK_RECORD
  5
1F
330
1
100
AcDbSymbolTableRecord
100
AcDbBlockTableRecord
  2
*Model_Space
340
22
  0
BLOCK_RECORD
  5
1B
330
1
100
AcDbSymbolTableRecord
100
AcDbBlockTableRecord
  2
*Paper_Space
340
1E
  0
BLOCK_RECORD
  5
23
330
1
100
AcDbSymbolTableRecord
100
AcDbBlockTableRecord
  2
*Paper_Space0
340
26
  0
BLOCK_RECORD
  5
B3
330
1
100
AcDbSymbolTableRecord
100
AcDbBlockTableRecord
  2
*Paper_Space1
340
B4
  0
BLOCK_RECORD
  5
DF
330
1
100
AcDbSymbolTableRecord
100
AcDbBlockTableRecord
  2
*Paper_Space2
340
E0
  0
BLOCK_RECORD
  5
ED
330
1
100
AcDbSymbolTableRecord
100
AcDbBlockTableRecord
  2
*Paper_Space3
340
EE
  0
BLOCK_RECORD
  5
113
330
1
100
AcDbSymbolTableRecord
100
AcDbBlockTableRecord
  2
*Paper_Space4
340
114
  0
BLOCK_RECORD
  5
143
330
1
100
AcDbSymbolTableRecord
100
AcDbBlockTableRecord
  2
*Paper_Space5
340
144
  0
BLOCK_RECORD
  5
174
330
1
100
AcDbSymbolTableRecord
100
AcDbBlockTableRecord
  2
*Paper_Space6
340
175
  0
ENDTAB
  0
ENDSEC
  0
SECTION
  2
BLOCKS
  0
BLOCK
  5
20
330
1F
100
AcDbEntity
  8
0
100
AcDbBlockBegin
  2
*Model_Space
 70
     0
 10
0.0
 20
0.0
 30
0.0
  3
*Model_Space
  1

  0
ENDBLK
  5
21
330
1F
100
AcDbEntity
  8
0
100
AcDbBlockEnd
  0
BLOCK
  5
1C
330
1B
100
AcDbEntity
 67
     1
  8
0
100
AcDbBlockBegin
  2
*Paper_Space
 70
     0
 10
0.0
 20
0.0
 30
0.0
  3
*Paper_Space
  1

  0
ENDBLK
  5
1D
330
1B
100
AcDbEntity
 67
     1
  8
0
100
AcDbBlockEnd
  0
BLOCK
  5
24
330
23
100
AcDbEntity
  8
0
100
AcDbBlockBegin
  2
*Paper_Space0
 70
     0
 10
0.0
 20
0.0
 30
0.0
  3
*Paper_Space0
  1

  0
LINE
  5
A9
330
23
100
AcDbEntity
  8
0
  6
Continuous
 62
     7
370
    25
100
AcDbLine
 10
170.0
 20
6.1
 30
0.0
 11
-170.0
 21
6.1
 31
0.0
  0
LINE
  5
AA
330
23
100
AcDbEntity
  8
0
  6
Continuous
 62
     7
370
    25
100
AcDbLine
 10
-170.0
 20
-6.1
 30
0.0
 11
170.0
 21
-6.1
 31
0.0
  0
LINE
  5
AB
330
23
100
AcDbEntity
  8
0
  6
Continuous
 62
     7
370
    25
100
AcDbLine
 10
-170.0
 20
6.1
 30
0.0
 11
-171.0
 21
5.1
 31
0.0
  0
LINE
  5
AC
330
23
100
AcDbEntity
  8
0
  6
Continuous
 62
     7
370
    25
100
AcDbLine
 10
-171.0
 20
-5.1
 30
0.0
 11
-170.0
 21
-6.1
 31
0.0
  0
LINE
  5
AD
330
23
100
AcDbEntity
  8
0
  6
Continuous
 62
     7
370
    25
100
AcDbLine
 10
170.0
 20
-6.1
 30
0.0
 11
171.0
 21
-5.1
 31
0.0
  0
LINE
  5
AE
330
23
100
AcDbEntity
  8
0
  6
Continuous
 62
     7
370
    25
100
AcDbLine
 10
171.0
 20
5.1
 30
0.0
 11
170.0
 21
6.1
 31
0.0
  0
LINE
  5
AF
330
23
100
AcDbEntity
  8
0
  6
Continuous
 62
     7
370
    25
100
AcDbLine
 10
170.0
 20
-6.1
 30
0.0
 11
170.0
 21
6.1
 31
0.0
  0
LINE
  5
B0
330
23
100
AcDbEntity
  8
0
  6
Continuous
 62
     7
370
    25
100
AcDbLine
 10
-170.0
 20
6.1
 30
0.0
 11
-170.0
 21
-6.1
 31
0.0
  0
LINE
  5
B1
330
23
100
AcDbEntity
  8
0
  6
Continuous
 62
     7
370
    25
100
AcDbLine
 10
-171.0
 20
-5.1
 30
0.0
 11
-171.0
 21
5.1
 31
0.0
  0
LINE
  5
B2
330
23
100
AcDbEntity
  8
0
  6
Continuous
 62
     7
370
    25
100
AcDbLine
 10
171.0
 20
5.1
 30
0.0
 11
171.0
 21
-5.1
 31
0.0
  0
VIEWPORT
  5
19E
330
23
100
AcDbEntity
  8
0
100
AcDbViewport
 10
0.0
 20
0.0
 30
0.0
 40
205.6
 41
156.0
 68
     1
 69
     1
 12
11.1
 22
0.0
 13
0.0
 23
0.0
 14
10.0
 24
10.0
 15
10.0
 25
10.0
 16
0.0
 26
0.0
 36
1.0
 17
0.0
 27
0.0
 37
0.0
 42
50.0
 43
0.0
 44
0.0
 45
26.6231906615
 50
0.0
 51
0.0
 72
   100
 90
   557152
  1

281
     0
 71
     1
 74
     0
110
0.0
120
0.0
130
0.0
111
1.0
121
0.0
131
0.0
112
0.0
122
1.0
132
0.0
 79
     0
146
0.0
  0
ENDBLK
  5
25
330
23
100
AcDbEntity
  8
0
100
AcDbBlockEnd
  0
BLOCK
  5
B5
330
B3
100
AcDbEntity
  8
0
100
AcDbBlockBegin
  2
*Paper_Space1
 70
     0
 10
0.0
 20
0.0
 30
0.0
  3
*Paper_Space1
  1

  0
CIRCLE
  5
C9
330
B3
100
AcDbEntity
  8
0
  6
Continuous
 62
     7
370
    25
100
AcDbCircle
 10
160.0
 20
0.0
 30
0.0
 40
3.649999999999977
  0
CIRCLE
  5
CB
330
B3
100
AcDbEntity
  8
0
  6
Continuous
 62
     7
370
    25
100
AcDbCircle
 10
-160.0
 20
0.0
 30
0.0
 40
3.649999999999977
  0
LINE
  5
CF
330
B3
100
AcDbEntity
  8
0
  6
Continuous
 62
     7
370
    25
100
AcDbLine
 10
170.0
 20
-6.1
 30
0.0
 11
171.0
 21
-5.1
 31
0.0
  0
LINE
  5
D0
330
B3
100
AcDbEntity
  8
0
  6
Continuous
 62
     7
370
    25
100
AcDbLine
 10
171.0
 20
5.1
 30
0.0
 11
170.0
 21
6.1
 31
0.0
  0
LINE
  5
D1
330
B3
100
AcDbEntity
  8
0
  6
Continuous
 62
     7
370
    25
100
AcDbLine
 10
-170.0
 20
-6.1
 30
0.0
 11
170.0
 21
-6.1
 31
0.0
  0
LINE
  5
D2
330
B3
100
AcDbEntity
  8
0
  6
Continuous
 62
     7
370
    25
100
AcDbLine
 10
170.0
 20
6.1
 30
0.0
 11
-170.0
 21
6.1
 31
0.0
  0
LINE
  5
D3
330
B3
100
AcDbEntity
  8
0
  6
Continuous
 62
     7
370
    25
100
AcDbLine
 10
-170.0
 20
6.1
 30
0.0
 11
-171.0
 21
5.1
 31
0.0
  0
LINE
  5
D4
330
B3
100
AcDbEntity
  8
0
  6
Continuous
 62
     7
370
    25
100
AcDbLine
 10
-171.0
 20
-5.1
 30
0.0
 11
-170.0
 21
-6.1
 31
0.0
  0
LINE
  5
D5
330
B3
100
AcDbEntity
  8
0
  6
Continuous
 62
     7
370
    25
100
AcDbLine
 10
170.0
 20
6.1
 30
0.0
 11
170.0
 21
-6.1
 31
0.0
  0
LINE
  5
D6
330
B3
100
AcDbEntity
  8
0
  6
Continuous
 62
     7
370
    25
100
AcDbLine
 10
171.0
 20
5.1
 30
0.0
 11
171.0
 21
-5.1
 31
0.0
  0
LINE
  5
D7
330
B3
100
AcDbEntity
  8
0
  6
Continuous
 62
     7
370
    25
100
AcDbLine
 10
-170.0
 20
-6.1
 30
0.0
 11
-170.0
 21
6.1
 31
0.0
  0
LINE
  5
D8
330
B3
100
AcDbEntity
  8
0
  6
Continuous
 62
     7
370
    25
100
AcDbLine
 10
-171.0
 20
-5.1
 30
0.0
 11
-171.0
 21
5.1
 31
0.0
  0
LINE
  5
D9
330
B3
100
AcDbEntity
  8
0
  6
Continuous
 62
     7
370
    25
100
AcDbLine
 10
150.0
 20
5.1
 30
0.0
 11
170.0
 21
5.1
 31
0.0
  0
LINE
  5
DA
330
B3
100
AcDbEntity
  8
0
  6
Continuous
 62
     7
370
    25
100
AcDbLine
 10
170.0
 20
-5.1
 30
0.0
 11
150.0
 21
-5.1
 31
0.0
  0
LINE
  5
DB
330
B3
100
AcDbEntity
  8
0
  6
Continuous
 62
     7
370
    25
100
AcDbLine
 10
150.0
 20
-5.1
 30
0.0
 11
150.0
 21
5.1
 31
0.0
  0
LINE
  5
DC
330
B3
100
AcDbEntity
  8
0
  6
Continuous
 62
     7
370
    25
100
AcDbLine
 10
-150.0
 20
-5.1
 30
0.0
 11
-170.0
 21
-5.1
 31
0.0
  0
LINE
  5
DD
330
B3
100
AcDbEntity
  8
0
  6
Continuous
 62
     7
370
    25
100
AcDbLine
 10
-150.0
 20
5.1
 30
0.0
 11
-150.0
 21
-5.1
 31
0.0
  0
LINE
  5
DE
330
B3
100
AcDbEntity
  8
0
  6
Continuous
 62
     7
370
    25
100
AcDbLine
 10
-170.0
 20
5.1
 30
0.0
 11
-150.0
 21
5.1
 31
0.0
  0
VIEWPORT
  5
1A0
330
B3
100
AcDbEntity
  8
0
100
AcDbViewport
 10
0.0
 20
0.0
 30
0.0
 40
205.6
 41
156.0
 68
     1
 69
     1
 12
11.1
 22
0.0
 13
0.0
 23
0.0
 14
10.0
 24
10.0
 15
10.0
 25
10.0
 16
0.0
 26
0.0
 36
1.0
 17
0.0
 27
0.0
 37
0.0
 42
50.0
 43
0.0
 44
0.0
 45
26.6231906615
 50
0.0
 51
0.0
 72
   100
 90
   557152
  1

281
     0
 71
     1
 74
     0
110
0.0
120
0.0
130
0.0
111
1.0
121
0.0
131
0.0
112
0.0
122
1.0
132
0.0
 79
     0
146
0.0
  0
ENDBLK
  5
B6
330
B3
100
AcDbEntity
  8
0
100
AcDbBlockEnd
  0
BLOCK
  5
E1
330
DF
100
AcDbEntity
  8
0
100
AcDbBlockBegin
  2
*Paper_Space2
 70
     0
 10
0.0
 20
0.0
 30
0.0
  3
*Paper_Space2
  1

  0
CIRCLE
  5
E3
330
DF
100
AcDbEntity
  8
0
  6
Continuous
 62
     7
370
    25
100
AcDbCircle
 10
0.0
 20
0.0
 30
0.0
 40
5.100000000000022
  0
CIRCLE
  5
E4
330
DF
100
AcDbEntity
  8
0
  6
Continuous
 62
     7
370
    25
100
AcDbCircle
 10
0.0
 20
0.0
 30
0.0
 40
6.100000000000001
  0
LINE
  5
E9
330
DF
100
AcDbEntity
  8
0
  6
Continuous
 62
     7
370
    25
100
AcDbLine
 10
-28.3
 20
5.1
 30
0.0
 11
-28.3
 21
-5.1
 31
0.0
  0
LINE
  5
EA
330
DF
100
AcDbEntity
  8
0
  6
Continuous
 62
     7
370
    25
100
AcDbLine
 10
-3.3466401061
 20
5.1
 30
0.0
 11
-28.3
 21
5.1
 31
0.0
  0
LINE
  5
EB
330
DF
100
AcDbEntity
  8
0
  6
Continuous
 62
     7
370
    25
100
AcDbLine
 10
-3.3466401061
 20
-5.1
 30
0.0
 11
-28.3
 21
-5.1
 31
0.0
  0
ARC
  5
EC
330
DF
100
AcDbEntity
  8
0
  6
Continuous
 62
     7
370
    25
100
AcDbCircle
 10
0.0
 20
0.0
 30
0.0
 40
6.100000000000001
100
AcDbArc
 50
123.2730434127
 51
236.7269565873
  0
VIEWPORT
  5
1A2
330
DF
100
AcDbEntity
  8
0
100
AcDbViewport
 10
0.0
 20
0.0
 30
0.0
 40
205.6
 41
156.0
 68
     1
 69
     1
 12
11.1
 22
0.0
 13
0.0
 23
0.0
 14
10.0
 24
10.0
 15
10.0
 25
10.0
 16
0.0
 26
0.0
 36
1.0
 17
0.0
 27
0.0
 37
0.0
 42
50.0
 43
0.0
 44
0.0
 45
26.6231906615
 50
0.0
 51
0.0
 72
   100
 90
   557152
  1

281
     0
 71
     1
 74
     0
110
0.0
120
0.0
130
0.0
111
1.0
121
0.0
131
0.0
112
0.0
122
1.0
132
0.0
 79
     0
146
0.0
  0
ENDBLK
  5
E2
330
DF
100
AcDbEntity
  8
0
100
AcDbBlockEnd
  0
BLOCK
  5
EF
330
ED
100
AcDbEntity
  8
0
100
AcDbBlockBegin
  2
*Paper_Space3
 70
     0
 10
0.0
 20
0.0
 30
0.0
  3
*Paper_Space3
  1

  0
LINE
  5
103
330
ED
100
AcDbEntity
  8
0
  6
Continuous
 62
     7
370
    25
100
AcDbLine
 10
170.0
 20
6.1
 30
0.0
 11
-170.0
 21
6.1
 31
0.0
  0
LINE
  5
104
330
ED
100
AcDbEntity
  8
0
  6
Continuous
 62
     7
370
    25
100
AcDbLine
 10
-150.0
 20
-6.1
 30
0.0
 11
150.0
 21
-6.1
 31
0.0
  0
LINE
  5
105
330
ED
100
AcDbEntity
  8
0
  6
Continuous
 62
     7
370
    25
100
AcDbLine
 10
-170.0
 20
6.1
 30
0.0
 11
-171.0
 21
5.1
 31
0.0
  0
LINE
  5
106
330
ED
100
AcDbEntity
  8
0
  6
Continuous
 62
     7
370
    25
100
AcDbLine
 10
-171.0
 20
-5.1
 30
0.0
 11
-170.0
 21
-6.1
 31
0.0
  0
LINE
  5
107
330
ED
100
AcDbEntity
  8
0
  6
Continuous
 62
     7
370
    25
100
AcDbLine
 10
170.0
 20
-6.1
 30
0.0
 11
171.0
 21
-5.1
 31
0.0
  0
LINE
  5
108
330
ED
100
AcDbEntity
  8
0
  6
Continuous
 62
     7
370
    25
100
AcDbLine
 10
171.0
 20
5.1
 30
0.0
 11
170.0
 21
6.1
 31
0.0
  0
LINE
  5
109
330
ED
100
AcDbEntity
  8
0
  6
Continuous
 62
     7
370
    25
100
AcDbLine
 10
170.0
 20
6.1
 30
0.0
 11
170.0
 21
-28.3
 31
0.0
  0
LINE
  5
10A
330
ED
100
AcDbEntity
  8
0
  6
Continuous
 62
     7
370
    25
100
AcDbLine
 10
-170.0
 20
6.1
 30
0.0
 11
-170.0
 21
-28.3
 31
0.0
  0
LINE
  5
10B
330
ED
100
AcDbEntity
  8
0
  6
Continuous
 62
     7
370
    25
100
AcDbLine
 10
-171.0
 20
-5.1
 30
0.0
 11
-171.0
 21
5.1
 31
0.0
  0
LINE
  5
10C
330
ED
100
AcDbEntity
  8
0
  6
Continuous
 62
     7
370
    25
100
AcDbLine
 10
171.0
 20
5.1
 30
0.0
 11
171.0
 21
-5.1
 31
0.0
  0
LINE
  5
10D
330
ED
100
AcDbEntity
  8
0
  6
Continuous
 62
     7
370
    25
100
AcDbLine
 10
-170.0
 20
-28.3
 30
0.0
 11
-150.0
 21
-28.3
 31
0.0
  0
LINE
  5
10E
330
ED
100
AcDbEntity
  8
0
  6
Continuous
 62
     7
370
    25
100
AcDbLine
 10
-150.0
 20
-3.3466401061
 30
0.0
 11
-170.0
 21
-3.3466401061
 31
0.0
  0
LINE
  5
10F
330
ED
100
AcDbEntity
  8
0
  6
Continuous
 62
     7
370
    25
100
AcDbLine
 10
-150.0
 20
-3.3466401061
 30
0.0
 11
-150.0
 21
-28.3
 31
0.0
  0
LINE
  5
110
330
ED
100
AcDbEntity
  8
0
  6
Continuous
 62
     7
370
    25
100
AcDbLine
 10
150.0
 20
-28.3
 30
0.0
 11
170.0
 21
-28.3
 31
0.0
  0
LINE
  5
111
330
ED
100
AcDbEntity
  8
0
  6
Continuous
 62
     7
370
    25
100
AcDbLine
 10
150.0
 20
-3.3466401061
 30
0.0
 11
150.0
 21
-28.3
 31
0.0
  0
LINE
  5
112
330
ED
100
AcDbEntity
  8
0
  6
Continuous
 62
     7
370
    25
100
AcDbLine
 10
170.0
 20
-3.3466401061
 30
0.0
 11
150.0
 21
-3.3466401061
 31
0.0
  0
VIEWPORT
  5
1A4
330
ED
100
AcDbEntity
  8
0
100
AcDbViewport
 10
0.0
 20
0.0
 30
0.0
 40
205.6
 41
156.0
 68
     1
 69
     1
 12
11.1
 22
0.0
 13
0.0
 23
0.0
 14
10.0
 24
10.0
 15
10.0
 25
10.0
 16
0.0
 26
0.0
 36
1.0
 17
0.0
 27
0.0
 37
0.0
 42
50.0
 43
0.0
 44
0.0
 45
26.6231906615
 50
0.0
 51
0.0
 72
   100
 90
   557152
  1

281
     0
 71
     1
 74
     0
110
0.0
120
0.0
130
0.0
111
1.0
121
0.0
131
0.0
112
0.0
122
1.0
132
0.0
 79
     0
146
0.0
  0
ENDBLK
  5
F0
330
ED
100
AcDbEntity
  8
0
100
AcDbBlockEnd
  0
BLOCK
  5
115
330
113
100
AcDbEntity
  8
0
100
AcDbBlockBegin
  2
*Paper_Space4
 70
     0
 10
0.0
 20
0.0
 30
0.0
  3
*Paper_Space4
  1

  0
LWPOLYLINE
  5
11D
330
113
100
AcDbEntity
  8
0
  6
Continuous
 62
     7
370
    25
100
AcDbPolyline
 90
       30
 70
   128
 43
0.0
 10
124.521504167
 20
-67.7210528757
 10
124.4371921726
 20
-66.8745112513
 10
124.1881985247
 20
-66.1648975291
 10
123.7861658895
 20
-65.625392458
 10
123.2498928662
 20
-65.2812226954
 10
122.6044549853
 20
-65.1484812371
 10
121.8800322048
 20
-65.233374926
 10
121.1104977288
 20
-65.5319342276
 10
120.331834134
 20
-66.0301988409
 10
119.5804508649
 20
-66.7048704661
 10
118.8914817678
 20
-67.5244022081
 10
118.2971422721
 20
-68.4504736734
 10
117.825223032
 20
-69.4397827895
 10
117.4977904668
 20
-70.4460705617
 10
117.3301549591
 20
-71.4222840922
 10
117.3301549591
 20
-72.3227767212
 10
117.4977904668
 20
-73.1054424144
 10
117.825223032
 20
-73.7336845936
 10
118.2971422721
 20
-74.1781273529
 10
118.8914817678
 20
-74.4179890429
 10
119.5804508649
 20
-74.4420539974
 10
120.331834134
 20
-74.2491969659
 10
121.1104977288
 20
-73.8484357289
 10
121.8800322048
 20
-73.2585094365
 10
122.6044549853
 20
-72.5070023863
 10
123.2498928662
 20
-71.6290542129
 10
123.7861658895
 20
-70.665716797
 10
124.1881985247
 20
-69.6620347256
 10
124.4371921726
 20
-68.6649390567
 10
124.521504167
 20
-67.7210528757
  0
LWPOLYLINE
  5
11E
330
113
100
AcDbEntity
  8
0
  6
Continuous
 62
     7
370
    25
100
AcDbPolyline
 90
       26
 70
   128
 43
0.0
 10
120.2088538426
 20
-74.3751836893
 10
119.9896851402
 20
-74.4953142059
 10
119.1270003595
 20
-74.840719832
 10
118.3085780868
 20
-74.9631643367
 10
117.5679246262
 20
-74.8576348275
 10
116.9353624173
 20
-74.528451695
 10
116.4367886313
 20
-73.9890917351
 10
116.0926149375
 20
-73.2616364082
 10
115.9169318474
 20
-72.3758678207
 10
115.9169318474
 20
-71.3680494427
 10
116.0926149375
 20
-70.2794414769
 10
116.4367886313
 20
-69.1546116615
 10
116.9353624173
 20
-68.0396106612
 10
117.5679246262
 20
-66.980086748
 10
118.3085780868
 20
-66.0194169553
 10
119.1270003595
 20
-65.1969312174
 10
119.9896851402
 20
-64.546302197
 10
120.8613140125
 20
-64.0941667227
 10
121.7062023882
 20
-63.8590352738
 10
122.4897604378
 20
-63.8505341596
 10
123.1799092027
 20
-64.0690114166
 10
123.7483939114
 20
-64.5055225603
 10
124.1719407331
 20
-65.1421967732
 10
124.4332096111
 20
-65.9529685382
 10
124.521504167
 20
-66.9046447639
 10
124.521504167
 20
-66.9046447639
  0
LWPOLYLINE
  5
11F
330
113
100
AcDbEntity
  8
0
  6
Continuous
 62
     7
370
    25
100
AcDbPolyline
 90
       17
 70
   128
 43
0.0
 10
-117.8417208885
 20
74.9251597105
 10
-117.9265451656
 20
74.9388448503
 10
-118.7101032152
 20
74.930343736
 10
-119.5549915909
 20
74.6952122872
 10
-120.4266204633
 20
74.2430768128
 10
-121.2893052439
 20
73.5924477924
 10
-122.1077275166
 20
72.7699620546
 10
-122.8483809772
 20
71.8092922619
 10
-123.4809431861
 20
70.7497683487
 10
-123.9795169722
 20
69.6347673484
 10
-124.3236906659
 20
68.5099375329
 10
-124.499373756
 20
67.4213295672
 10
-124.499373756
 20
66.4135111892
 10
-124.3236906659
 20
65.5277426017
 10
-123.9795169722
 20
64.8002872747
 10
-123.4809431861
 20
64.2609273149
 10
-123.2579049363
 20
64.1117914444
  0
LWPOLYLINE
  5
122
330
113
100
AcDbEntity
  8
0
  6
Continuous
 62
     7
370
    25
100
AcDbPolyline
 90
        3
 70
   128
 43
0.0
 10
-103.6995852647
 20
66.7610785923
 10
-103.0363963505
 20
66.5249756037
 10
-103.0162650434
 20
66.5135064472
  0
LINE
  5
12F
330
113
100
AcDbEntity
  8
0
  6
Continuous
 62
     7
370
    25
100
AcDbLine
 10
120.2088538426
 20
-74.3751836893
 30
0.0
 11
120.9158456991
 21
-73.9669132888
 31
0.0
  0
LINE
  5
130
330
113
100
AcDbEntity
  8
0
  6
Continuous
 62
     7
370
    25
100
AcDbLine
 10
124.521504167
 20
-67.7210528757
 30
0.0
 11
124.521504167
 21
-66.9046447639
 31
0.0
  0
LINE
  5
131
330
113
100
AcDbEntity
  8
0
  6
Continuous
 62
     7
370
    25
100
AcDbLine
 10
108.5596822013
 20
-55.62668807
 30
0.0
 11
-103.0162650434
 21
66.5135064472
 31
0.0
  0
LINE
  5
132
330
113
100
AcDbEntity
  8
0
  6
Continuous
 62
     7
370
    25
100
AcDbLine
 10
-123.2579049363
 20
64.1117914444
 30
0.0
 11
117.1584006672
 21
-74.6775875655
 31
0.0
  0
LINE
  5
133
330
113
100
AcDbEntity
  8
0
  6
Continuous
 62
     7
370
    25
100
AcDbLine
 10
-120.2088538426
 20
74.3751836893
 30
0.0
 11
-120.9158456991
 21
73.9669132888
 31
0.0
  0
LINE
  5
134
330
113
100
AcDbEntity
  8
0
  6
Continuous
 62
     7
370
    25
100
AcDbLine
 10
-124.521504167
 20
67.7210528757
 30
0.0
 11
-124.521504167
 21
66.9046447639
 31
0.0
  0
LINE
  5
135
330
113
100
AcDbEntity
  8
0
  6
Continuous
 62
     7
370
    25
100
AcDbLine
 10
-117.8417208885
 20
74.9251597105
 30
0.0
 11
-103.6995852647
 21
66.7610785923
 31
0.0
  0
LINE
  5
136
330
113
100
AcDbEntity
  8
0
  6
Continuous
 62
     7
370
    25
100
AcDbLine
 10
-86.0548952704
 20
68.6184250284
 30
0.0
 11
-86.0548952704
 21
76.9471413096
 31
0.0
  0
LINE
  5
137
330
113
100
AcDbEntity
  8
0
  6
Continuous
 62
     7
370
    25
100
AcDbLine
 10
-96.3586906589
 20
62.6701705627
 30
0.0
 11
-86.0548952704
 21
68.6184250284
 31
0.0
  0
LINE
  5
138
330
113
100
AcDbEntity
  8
0
  6
Continuous
 62
     7
370
    25
100
AcDbLine
 10
-103.6995852647
 20
66.7610785923
 30
0.0
 11
-86.0548952704
 21
76.9471413096
 31
0.0
  0
LINE
  5
139
330
113
100
AcDbEntity
  8
0
  6
Continuous
 62
     7
370
    25
100
AcDbLine
 10
-86.0548952704
 20
76.9471413096
 30
0.0
 11
-100.1970308941
 21
85.1112224278
 31
0.0
  0
LINE
  5
13A
330
113
100
AcDbEntity
  8
0
  6
Continuous
 62
     7
370
    25
100
AcDbLine
 10
-117.8417208885
 20
74.9251597105
 30
0.0
 11
-100.1970308941
 21
85.1112224278
 31
0.0
  0
LINE
  5
13B
330
113
100
AcDbEntity
  8
0
  6
Continuous
 62
     7
370
    25
100
AcDbLine
 10
108.4324490912
 20
-55.7001381811
 30
0.0
 11
122.574584715
 21
-63.8642192993
 31
0.0
  0
LINE
  5
13C
330
113
100
AcDbEntity
  8
0
  6
Continuous
 62
     7
370
    25
100
AcDbLine
 10
140.2192747093
 20
-53.678156582
 30
0.0
 11
126.0771390856
 21
-45.5140754638
 31
0.0
  0
LINE
  5
13D
330
113
100
AcDbEntity
  8
0
  6
Continuous
 62
     7
370
    25
100
AcDbLine
 10
122.574584715
 20
-63.8642192993
 30
0.0
 11
140.2192747093
 21
-53.678156582
 31
0.0
  0
LINE
  5
13E
330
113
100
AcDbEntity
  8
0
  6
Continuous
 62
     7
370
    25
100
AcDbLine
 10
108.4324490912
 20
-55.7001381811
 30
0.0
 11
126.0771390856
 21
-45.5140754638
 31
0.0
  0
LINE
  5
13F
330
113
100
AcDbEntity
  8
0
  6
Continuous
 62
     7
370
    25
100
AcDbLine
 10
140.2192747093
 20
-62.0068728633
 30
0.0
 11
140.2192747093
 21
-53.678156582
 31
0.0
  0
LINE
  5
140
330
113
100
AcDbEntity
  8
0
  6
Continuous
 62
     7
370
    25
100
AcDbLine
 10
123.0598652986
 20
-71.9127890627
 30
0.0
 11
140.2192747093
 21
-62.0068728633
 31
0.0
  0
ARC
  5
141
330
113
100
AcDbEntity
  8
0
  6
Continuous
 62
     7
370
    25
100
AcDbCircle
 10
-116.7203256814
 20
67.3812097665
 30
0.0
 40
7.808577277684
100
AcDbArc
 50
122.4997781889
 51
177.5055983438
  0
ARC
  5
142
330
113
100
AcDbEntity
  8
0
  6
Continuous
 62
     7
370
    25
100
AcDbCircle
 10
121.7599760438
 20
-66.5294116355
 30
0.0
 40
2.786904640601832
100
AcDbArc
 50
352.2621076863
 51
73.004372478
  0
VIEWPORT
  5
1A6
330
113
100
AcDbEntity
  8
0
100
AcDbViewport
 10
0.0
 20
0.0
 30
0.0
 40
205.6
 41
156.0
 68
     1
 69
     1
 12
11.1
 22
0.0
 13
0.0
 23
0.0
 14
10.0
 24
10.0
 15
10.0
 25
10.0
 16
0.0
 26
0.0
 36
1.0
 17
0.0
 27
0.0
 37
0.0
 42
50.0
 43
0.0
 44
0.0
 45
26.6231906615
 50
0.0
 51
0.0
 72
   100
 90
   557152
  1

281
     0
 71
     1
 74
     0
110
0.0
120
0.0
130
0.0
111
1.0
121
0.0
131
0.0
112
0.0
122
1.0
132
0.0
 79
     0
146
0.0
  0
ENDBLK
  5
116
330
113
100
AcDbEntity
  8
0
100
AcDbBlockEnd
  0
BLOCK
  5
145
330
143
100
AcDbEntity
  8
0
100
AcDbBlockBegin
  2
*Paper_Space5
 70
     0
 10
0.0
 20
0.0
 30
0.0
  3
*Paper_Space5
  1

  0
LWPOLYLINE
  5
14D
330
143
100
AcDbEntity
  8
0
  6
Continuous
 62
     7
370
    25
100
AcDbPolyline
 90
       30
 70
   128
 43
0.0
 10
153.6156452904
 20
-38.7794720562
 10
153.5599987883
 20
-37.8940300252
 10
153.3956612505
 20
-37.1586156634
 10
153.1303169178
 20
-36.6076161291
 10
152.7763729961
 20
-36.266795548
 10
152.3503795098
 20
-36.1520903118
 10
151.872255441
 20
-36.2688639098
 10
151.3643573397
 20
-36.6116561383
 10
150.8504339566
 20
-37.1644384139
 10
150.354515778
 20
-37.9013632515
 10
149.8997913866
 20
-38.7879728648
 10
149.5075231897
 20
-39.7828103738
 10
149.1960532121
 20
-40.8393582821
 10
148.9799454438
 20
-41.9082135839
 10
148.869304844
 20
-42.9393977931
 10
148.869304844
 20
-43.8846938824
 10
148.9799454438
 20
-44.699900857
 10
149.1960532121
 20
-45.346900545
 10
149.5075231897
 20
-45.7954399599
 10
149.8997913866
 20
-46.0245458974
 10
150.354515778
 20
-46.0235056183
 10
150.8504339566
 20
-45.792367765
 10
151.3643573397
 20
-45.3419400867
 10
151.872255441
 20
-44.6932840808
 10
152.3503795098
 20
-43.8767301814
 10
152.7763729961
 20
-42.9304595412
 10
153.1303169178
 20
-41.8987187237
 10
153.3956612505
 20
-40.8297507827
 10
153.5599987883
 20
-39.7735394713
 10
153.6156452904
 20
-38.7794720562
  0
LWPOLYLINE
  5
14E
330
143
100
AcDbEntity
  8
0
  6
Continuous
 62
     7
370
    25
100
AcDbPolyline
 90
       22
 70
   128
 43
0.0
 10
149.9395344058
 20
-46.437680297
 10
149.6375125609
 20
-46.6204711712
 10
149.0973481741
 20
-46.7802524938
 10
148.6085117437
 20
-46.6977481378
 10
148.1910162904
 20
-46.3763358413
 10
147.8619541273
 20
-45.8291742613
 10
147.6347970979
 20
-45.0786642573
 10
147.5188450377
 20
-44.155531797
 10
147.5188450377
 20
-43.0975700318
 10
147.6347970979
 20
-41.9480920407
 10
147.8619541273
 20
-40.7541575877
 10
148.1910162904
 20
-39.5646464895
 10
148.6085117437
 20
-38.4282574704
 10
149.0973481741
 20
-37.3915144302
 10
149.6375125609
 20
-36.4968617508
 10
150.2068905105
 20
-35.7809266181
 10
150.7821716228
 20
-35.2730195005
 10
151.3398038215
 20
-34.9939341751
 10
151.8569575788
 20
-34.9550964278
 10
152.3124605591
 20
-35.1580962807
 10
152.687664417
 20
-35.5946228959
 10
152.8182869854
 20
-35.8454082418
  0
LWPOLYLINE
  5
14F
330
143
100
AcDbEntity
  8
0
  6
Continuous
 62
     7
370
    25
100
AcDbPolyline
 90
       18
 70
   128
 43
0.0
 10
-148.751263016
 20
46.748676714
 10
-148.8452037915
 20
46.7693077647
 10
-149.3623575488
 20
46.7304700175
 10
-149.9199897475
 20
46.451384692
 10
-150.4952708598
 20
45.9434775744
 10
-151.0646488094
 20
45.2275424417
 10
-151.6048131962
 20
44.3328897624
 10
-152.0936496267
 20
43.2961467222
 10
-152.5111450799
 20
42.159757703
 10
-152.8402072431
 20
40.9702466049
 10
-153.0673642725
 20
39.7763121518
 10
-153.1833163326
 20
38.6268341607
 10
-153.1833163326
 20
37.5688723955
 10
-153.0673642725
 20
36.6457399353
 10
-152.8402072431
 20
35.8952299312
 10
-152.5111450799
 20
35.3480683513
 10
-152.0936496267
 20
35.0266560547
 10
-151.9508983544
 20
34.9757274785
  0
LINE
  5
160
330
143
100
AcDbEntity
  8
0
  6
Continuous
 62
     7
370
    25
100
AcDbLine
 10
149.9395344058
 20
-46.437680297
 30
0.0
 11
150.8914191306
 21
-45.7640333719
 31
0.0
  0
LINE
  5
161
330
143
100
AcDbEntity
  8
0
  6
Continuous
 62
     7
370
    25
100
AcDbLine
 10
153.2982450579
 20
-36.9081993585
 30
0.0
 11
152.8182869854
 21
-35.8454082418
 31
0.0
  0
LINE
  5
162
330
143
100
AcDbEntity
  8
0
  6
Continuous
 62
     7
370
    25
100
AcDbLine
 10
134.2252307747
 20
-30.1582708455
 30
0.0
 11
-131.0629005824
 21
41.9413588203
 31
0.0
  0
LINE
  5
163
330
143
100
AcDbEntity
  8
0
  6
Continuous
 62
     7
370
    25
100
AcDbLine
 10
-151.9508983544
 20
34.9757274785
 30
0.0
 11
148.751263016
 21
-46.748676714
 31
0.0
  0
LINE
  5
164
330
143
100
AcDbEntity
  8
0
  6
Continuous
 62
     7
370
    25
100
AcDbLine
 10
-149.9395344058
 20
46.437680297
 30
0.0
 11
-150.8914191306
 21
45.7640333719
 31
0.0
  0
LINE
  5
165
330
143
100
AcDbEntity
  8
0
  6
Continuous
 62
     7
370
    25
100
AcDbLine
 10
-153.2982450579
 20
36.9081993585
 30
0.0
 11
-152.8182869854
 21
35.8454082418
 31
0.0
  0
LINE
  5
166
330
143
100
AcDbEntity
  8
0
  6
Continuous
 62
     7
370
    25
100
AcDbLine
 10
-148.7892191792
 20
46.7581800407
 30
0.0
 11
-131.1008567457
 21
41.950862147
 31
0.0
  0
LINE
  5
167
330
143
100
AcDbEntity
  8
0
  6
Continuous
 62
     7
370
    25
100
AcDbLine
 10
-119.4552387449
 20
44.5742358616
 30
0.0
 11
-119.4552387449
 21
53.3173423287
 31
0.0
  0
LINE
  5
168
330
143
100
AcDbEntity
  8
0
  6
Continuous
 62
     7
370
    25
100
AcDbLine
 10
-124.0934403802
 20
40.0472088748
 30
0.0
 11
-119.4552387449
 21
44.5742358616
 31
0.0
  0
LINE
  5
169
330
143
100
AcDbEntity
  8
0
  6
Continuous
 62
     7
370
    25
100
AcDbLine
 10
-131.1008567457
 20
41.950862147
 30
0.0
 11
-119.4552387449
 21
53.3173423287
 31
0.0
  0
LINE
  5
16A
330
143
100
AcDbEntity
  8
0
  6
Continuous
 62
     7
370
    25
100
AcDbLine
 10
-119.4552387449
 20
53.3173423287
 30
0.0
 11
-137.1436011784
 21
58.1246602224
 31
0.0
  0
LINE
  5
16B
330
143
100
AcDbEntity
  8
0
  6
Continuous
 62
     7
370
    25
100
AcDbLine
 10
-148.7892191792
 20
46.7581800407
 30
0.0
 11
-137.1436011784
 21
58.1246602224
 31
0.0
  0
LINE
  5
16C
330
143
100
AcDbEntity
  8
0
  6
Continuous
 62
     7
370
    25
100
AcDbLine
 10
134.2245797576
 20
-30.1589062581
 30
0.0
 11
151.9129421911
 21
-34.9662241518
 31
0.0
  0
LINE
  5
16D
330
143
100
AcDbEntity
  8
0
  6
Continuous
 62
     7
370
    25
100
AcDbLine
 10
163.5585601919
 20
-23.5997439701
 30
0.0
 11
145.8701977583
 21
-18.7924260764
 31
0.0
  0
LINE
  5
16E
330
143
100
AcDbEntity
  8
0
  6
Continuous
 62
     7
370
    25
100
AcDbLine
 10
151.9129421911
 20
-34.9662241518
 30
0.0
 11
163.5585601919
 21
-23.5997439701
 31
0.0
  0
LINE
  5
16F
330
143
100
AcDbEntity
  8
0
  6
Continuous
 62
     7
370
    25
100
AcDbLine
 10
134.2245797576
 20
-30.1589062581
 30
0.0
 11
145.8701977583
 21
-18.7924260764
 31
0.0
  0
LINE
  5
170
330
143
100
AcDbEntity
  8
0
  6
Continuous
 62
     7
370
    25
100
AcDbLine
 10
163.5585601919
 20
-32.3428504373
 30
0.0
 11
163.5585601919
 21
-23.5997439701
 31
0.0
  0
LINE
  5
171
330
143
100
AcDbEntity
  8
0
  6
Continuous
 62
     7
370
    25
100
AcDbLine
 10
152.8163969995
 20
-42.8275310293
 30
0.0
 11
163.5585601919
 21
-32.3428504373
 31
0.0
  0
ARC
  5
172
330
143
100
AcDbEntity
  8
0
  6
Continuous
 62
     7
370
    25
100
AcDbCircle
 10
-144.5738404005
 20
39.2920719782
 30
0.0
 40
9.0442293918705
100
AcDbArc
 50
134.3084156756
 51
195.2825580071
  0
ARC
  5
173
330
143
100
AcDbEntity
  8
0
  6
Continuous
 62
     7
370
    25
100
AcDbCircle
 10
151.4303841371
 20
-36.3688750489
 30
0.0
 40
1.483338064865535
100
AcDbArc
 50
20.6646630699
 51
71.0150974553
  0
VIEWPORT
  5
1A8
330
143
100
AcDbEntity
  8
0
100
AcDbViewport
 10
0.0
 20
0.0
 30
0.0
 40
205.6
 41
156.0
 68
     1
 69
     1
 12
11.1
 22
0.0
 13
0.0
 23
0.0
 14
10.0
 24
10.0
 15
10.0
 25
10.0
 16
0.0
 26
0.0
 36
1.0
 17
0.0
 27
0.0
 37
0.0
 42
50.0
 43
0.0
 44
0.0
 45
26.6231906615
 50
0.0
 51
0.0
 72
   100
 90
   557152
  1

281
     0
 71
     1
 74
     0
110
0.0
120
0.0
130
0.0
111
1.0
121
0.0
131
0.0
112
0.0
122
1.0
132
0.0
 79
     0
146
0.0
  0
ENDBLK
  5
146
330
143
100
AcDbEntity
  8
0
100
AcDbBlockEnd
  0
BLOCK
  5
176
330
174
100
AcDbEntity
  8
0
100
AcDbBlockBegin
  2
*Paper_Space6
 70
     0
 10
0.0
 20
0.0
 30
0.0
  3
*Paper_Space6
  1

  0
LWPOLYLINE
  5
17E
330
174
100
AcDbEntity
  8
0
  6
Continuous
 62
     7
370
    25
100
AcDbPolyline
 90
       30
 70
   128
 43
0.0
 10
161.7589755814
 20
-18.5623388653
 10
161.7168195843
 20
-17.5658689792
 10
161.5923227604
 20
-16.6903491074
 10
161.3913064428
 20
-15.9767175859
 10
161.1231699312
 20
-15.4583430315
 10
160.8004509908
 20
-15.1594640624
 10
160.4382396007
 20
-15.0940559268
 10
160.0534723627
 20
-15.2651770366
 10
159.6641405655
 20
-15.6648259588
 10
159.288448931
 20
-16.274315554
 10
158.9439643825
 20
-17.0651467662
 10
158.6467946347
 20
-18.0003412067
 10
158.4108350148
 20
-19.036170223
 10
158.2471187322
 20
-20.1241996015
 10
158.1633009783
 20
-21.2135542977
 10
158.1633009783
 20
-22.2532972967
 10
158.2471187322
 20
-23.1948113715
 10
158.4108350148
 20
-23.9940723704
 10
158.6467946347
 20
-24.6137077374
 10
158.9439643825
 20
-25.0247440114
 10
159.288448931
 20
-25.2079615931
 10
159.6641405655
 20
-25.1547934319
 10
160.0534723627
 20
-24.8677256121
 10
160.4382396007
 20
-24.3601811057
 10
160.8004509908
 20
-23.6558921299
 10
161.1231699312
 20
-22.7877904543
 10
161.3913064428
 20
-21.7964675486
 10
161.5923227604
 20
-20.7282765699
 10
161.7168195843
 20
-19.6331649413
 10
161.7589755814
 20
-18.5623388653
  0
LWPOLYLINE
  5
17F
330
174
100
AcDbEntity
  8
0
  6
Continuous
 62
     7
370
    25
100
AcDbPolyline
 90
       21
 70
   128
 43
0.0
 10
159.0204389431
 20
-25.785827278
 10
158.9112051123
 20
-25.874780921
 10
158.4798627221
 20
-26.0789778893
 10
158.0706515859
 20
-26.0357210883
 10
157.7003248557
 20
-25.7467814563
 10
157.3840437513
 20
-25.223988216
 10
157.1347568583
 20
-24.4887445839
 10
156.9626700115
 20
-23.5711515208
 10
156.8748284665
 20
-22.5087753945
 10
156.8748284665
 20
-21.3451100085
 10
156.9626700115
 20
-20.1277959603
 10
157.1347568583
 20
-18.9066702301
 10
157.3840437513
 20
-17.7317258487
 10
157.7003248557
 20
-16.6510651773
 10
158.0706515859
 20
-15.7089305907
 10
158.4798627221
 20
-14.9438931895
 10
158.9112051123
 20
-14.3872736948
 10
159.3470195484
 20
-14.0618601742
 10
159.7694637362
 20
-13.9809750954
 10
160.1612427609
 20
-14.147929903
 10
160.4469458212
 20
-14.4632799438
  0
LWPOLYLINE
  5
180
330
174
100
AcDbEntity
  8
0
  6
Continuous
 62
     7
370
    25
100
AcDbPolyline
 90
       18
 70
   128
 43
0.0
 10
-158.2579389435
 20
26.0868482484
 10
-158.27141415
 20
26.0884091531
 10
-158.6938583378
 20
26.0075240743
 10
-159.1296727739
 20
25.6821105537
 10
-159.5610151641
 20
25.125491059
 10
-159.9702263003
 20
24.3604536578
 10
-160.3405530305
 20
23.4183190712
 10
-160.6568341349
 20
22.3376583998
 10
-160.9061210279
 20
21.1627140185
 10
-161.0782078747
 20
19.9415882883
 10
-161.1660494198
 20
18.72427424
 10
-161.1660494198
 20
17.560608854
 10
-161.0782078747
 20
16.4982327277
 10
-160.9061210279
 20
15.5806396646
 10
-160.6568341349
 20
14.8453960325
 10
-160.3405530305
 20
14.3226027922
 10
-159.9702263003
 20
14.0336631603
 10
-159.7829389427
 20
13.9825360001
  0
LWPOLYLINE
  5
181
330
174
100
AcDbEntity
  8
0
  6
Continuous
 62
     7
370
    25
100
AcDbPolyline
 90
       13
 70
   128
 43
0.0
 10
-161.1485065813
 20
15.4944773331
 10
-161.2649119449
 20
15.6913787714
 10
-161.5008715649
 20
16.3110141383
 10
-161.6645878475
 20
17.1102751373
 10
-161.7484056013
 20
18.0517892121
 10
-161.7484056013
 20
19.0915322111
 10
-161.6645878475
 20
20.1808869073
 10
-161.5008715649
 20
21.2689162858
 10
-161.2649119449
 20
22.3047453021
 10
-160.9677421971
 20
23.2399397426
 10
-160.6232576487
 20
24.0307709548
 10
-160.2475660142
 20
24.64026055
 10
-159.9558532899
 20
24.9608693666
  0
LINE
  5
18C
330
174
100
AcDbEntity
  8
0
  6
Continuous
 62
     7
370
    25
100
AcDbLine
 10
159.0204389431
 20
-25.785827278
 30
0.0
 11
159.9558532899
 21
-24.9608693666
 31
0.0
  0
LINE
  5
18D
330
174
100
AcDbEntity
  8
0
  6
Continuous
 62
     7
370
    25
100
AcDbLine
 10
161.1485065813
 20
-15.4944773331
 30
0.0
 11
160.4469458212
 21
-14.4632799438
 31
0.0
  0
LINE
  5
18E
330
174
100
AcDbEntity
  8
0
  6
Continuous
 62
     7
370
    25
100
AcDbLine
 10
159.7829389427
 20
-13.9825360001
 30
0.0
 11
-158.2579389435
 21
26.0868482484
 31
0.0
  0
LINE
  5
18F
330
174
100
AcDbEntity
  8
0
  6
Continuous
 62
     7
370
    25
100
AcDbLine
 10
-159.7829389427
 20
13.9825360001
 30
0.0
 11
158.2579389435
 21
-26.0868482484
 31
0.0
  0
LINE
  5
190
330
174
100
AcDbEntity
  8
0
  6
Continuous
 62
     7
370
    25
100
AcDbLine
 10
-159.0204389431
 20
25.785827278
 30
0.0
 11
-159.9558532899
 21
24.9608693666
 31
0.0
  0
LINE
  5
191
330
174
100
AcDbEntity
  8
0
  6
Continuous
 62
     7
370
    25
100
AcDbLine
 10
-161.1485065813
 20
15.4944773331
 30
0.0
 11
-160.4469458212
 21
14.4632799438
 31
0.0
  0
LINE
  5
192
330
174
100
AcDbEntity
  8
0
  6
Continuous
 62
     7
370
    25
100
AcDbLine
 10
-130.3065910571
 20
22.5653094255
 30
0.0
 11
-130.3065910571
 21
31.3100709689
 31
0.0
  0
LINE
  5
193
330
174
100
AcDbEntity
  8
0
  6
Continuous
 62
     7
370
    25
100
AcDbLine
 10
-138.9827651769
 20
23.658404618
 30
0.0
 11
-130.3065910571
 21
31.3100709689
 31
0.0
  0
LINE
  5
194
330
174
100
AcDbEntity
  8
0
  6
Continuous
 62
     7
370
    25
100
AcDbLine
 10
-130.3065910571
 20
31.3100709689
 30
0.0
 11
-149.0148779916
 21
33.6670935718
 31
0.0
  0
LINE
  5
195
330
174
100
AcDbEntity
  8
0
  6
Continuous
 62
     7
370
    25
100
AcDbLine
 10
-157.6910521114
 20
26.0154272208
 30
0.0
 11
-149.0148779916
 21
33.6670935718
 31
0.0
  0
LINE
  5
196
330
174
100
AcDbEntity
  8
0
  6
Continuous
 62
     7
370
    25
100
AcDbLine
 10
160.2036548995
 20
-14.1828676228
 30
0.0
 11
160.4469458212
 21
-14.4632799438
 31
0.0
  0
LINE
  5
197
330
174
100
AcDbEntity
  8
0
  6
Continuous
 62
     7
370
    25
100
AcDbLine
 10
169.0259998946
 20
-6.4022906767
 30
0.0
 11
150.3177129601
 21
-4.0452680739
 31
0.0
  0
LINE
  5
198
330
174
100
AcDbEntity
  8
0
  6
Continuous
 62
     7
370
    25
100
AcDbLine
 10
160.2036548995
 20
-14.1828676228
 30
0.0
 11
169.0259998946
 21
-6.4022906767
 31
0.0
  0
LINE
  5
199
330
174
100
AcDbEntity
  8
0
  6
Continuous
 62
     7
370
    25
100
AcDbLine
 10
141.6415388403
 20
-11.6969344248
 30
0.0
 11
150.3177129601
 21
-4.0452680739
 31
0.0
  0
LINE
  5
19A
330
174
100
AcDbEntity
  8
0
  6
Continuous
 62
     7
370
    25
100
AcDbLine
 10
169.0259998946
 20
-16.0189429011
 30
0.0
 11
169.0259998946
 21
-6.4022906767
 31
0.0
  0
LINE
  5
19B
330
174
100
AcDbEntity
  8
0
  6
Continuous
 62
     7
370
    25
100
AcDbLine
 10
161.028233819
 20
-23.0723095946
 30
0.0
 11
169.0259998946
 21
-16.0189429011
 31
0.0
  0
VIEWPORT
  5
1AA
330
174
100
AcDbEntity
  8
0
100
AcDbViewport
 10
0.0
 20
0.0
 30
0.0
 40
205.6
 41
156.0
 68
     1
 69
     1
 12
11.1
 22
0.0
 13
0.0
 23
0.0
 14
10.0
 24
10.0
 15
10.0
 25
10.0
 16
0.0
 26
0.0
 36
1.0
 17
0.0
 27
0.0
 37
0.0
 42
50.0
 43
0.0
 44
0.0
 45
26.6231906615
 50
0.0
 51
0.0
 72
   100
 90
   557152
  1

281
     0
 71
     1
 74
     0
110
0.0
120
0.0
130
0.0
111
1.0
121
0.0
131
0.0
112
0.0
122
1.0
132
0.0
 79
     0
146
0.0
  0
ENDBLK
  5
177
330
174
100
AcDbEntity
  8
0
100
AcDbBlockEnd
  0
ENDSEC
  0
SECTION
  2
ENTITIES
  0
CIRCLE
  5
73
330
1F
100
AcDbEntity
  8
0
  6
Continuous
 62
     7
370
    25
100
AcDbCircle
 10
0.0
 20
0.0
 30
0.0
 40
5.099999999999994
  0
CIRCLE
  5
74
330
1F
100
AcDbEntity
  8
0
  6
Continuous
 62
     7
370
    25
100
AcDbCircle
 10
0.0
 20
0.0
 30
0.0
 40
6.100000000000001
  0
LINE
  5
79
330
1F
100
AcDbEntity
  8
0
  6
Continuous
 62
     7
370
    25
100
AcDbLine
 10
28.3
 20
-5.1
 30
0.0
 11
28.3
 21
5.1
 31
0.0
  0
LINE
  5
7A
330
1F
100
AcDbEntity
  8
0
  6
Continuous
 62
     7
370
    25
100
AcDbLine
 10
3.3466401061
 20
5.1
 30
0.0
 11
28.3
 21
5.1
 31
0.0
  0
LINE
  5
7B
330
1F
100
AcDbEntity
  8
0
  6
Continuous
 62
     7
370
    25
100
AcDbLine
 10
3.3466401061
 20
-5.1
 30
0.0
 11
28.3
 21
-5.1
 31
0.0
  0
ARC
  5
7C
330
1F
100
AcDbEntity
  8
0
  6
Continuous
 62
     7
370
    25
100
AcDbCircle
 10
0.0
 20
0.0
 30
0.0
 40
6.1
100
AcDbArc
 50
303.2730434127
 51
56.7269565873
  0
LINE
  5
8F
330
1B
100
AcDbEntity
 67
     1
  8
0
  6
Continuous
 62
     7
370
    25
100
AcDbLine
 10
150.0
 20
6.1
 30
0.0
 11
-150.0
 21
6.1
 31
0.0
  0
LINE
  5
90
330
1B
100
AcDbEntity
 67
     1
  8
0
  6
Continuous
 62
     7
370
    25
100
AcDbLine
 10
-170.0
 20
-6.1
 30
0.0
 11
170.0
 21
-6.1
 31
0.0
  0
LINE
  5
91
330
1B
100
AcDbEntity
 67
     1
  8
0
  6
Continuous
 62
     7
370
    25
100
AcDbLine
 10
-170.0
 20
6.1
 30
0.0
 11
-171.0
 21
5.1
 31
0.0
  0
LINE
  5
92
330
1B
100
AcDbEntity
 67
     1
  8
0
  6
Continuous
 62
     7
370
    25
100
AcDbLine
 10
-171.0
 20
-5.1
 30
0.0
 11
-170.0
 21
-6.1
 31
0.0
  0
LINE
  5
93
330
1B
100
AcDbEntity
 67
     1
  8
0
  6
Continuous
 62
     7
370
    25
100
AcDbLine
 10
170.0
 20
-6.1
 30
0.0
 11
171.0
 21
-5.1
 31
0.0
  0
LINE
  5
94
330
1B
100
AcDbEntity
 67
     1
  8
0
  6
Continuous
 62
     7
370
    25
100
AcDbLine
 10
171.0
 20
5.1
 30
0.0
 11
170.0
 21
6.1
 31
0.0
  0
LINE
  5
95
330
1B
100
AcDbEntity
 67
     1
  8
0
  6
Continuous
 62
     7
370
    25
100
AcDbLine
 10
170.0
 20
-6.1
 30
0.0
 11
170.0
 21
28.3
 31
0.0
  0
LINE
  5
96
330
1B
100
AcDbEntity
 67
     1
  8
0
  6
Continuous
 62
     7
370
    25
100
AcDbLine
 10
-170.0
 20
-6.1
 30
0.0
 11
-170.0
 21
28.3
 31
0.0
  0
LINE
  5
97
330
1B
100
AcDbEntity
 67
     1
  8
0
  6
Continuous
 62
     7
370
    25
100
AcDbLine
 10
-171.0
 20
-5.1
 30
0.0
 11
-171.0
 21
5.1
 31
0.0
  0
LINE
  5
98
330
1B
100
AcDbEntity
 67
     1
  8
0
  6
Continuous
 62
     7
370
    25
100
AcDbLine
 10
171.0
 20
5.1
 30
0.0
 11
171.0
 21
-5.1
 31
0.0
  0
LINE
  5
99
330
1B
100
AcDbEntity
 67
     1
  8
0
  6
Continuous
 62
     7
370
    25
100
AcDbLine
 10
-170.0
 20
3.3466401061
 30
0.0
 11
-150.0
 21
3.3466401061
 31
0.0
  0
LINE
  5
9A
330
1B
100
AcDbEntity
 67
     1
  8
0
  6
Continuous
 62
     7
370
    25
100
AcDbLine
 10
-150.0
 20
28.3
 30
0.0
 11
-170.0
 21
28.3
 31
0.0
  0
LINE
  5
9B
330
1B
100
AcDbEntity
 67
     1
  8
0
  6
Continuous
 62
     7
370
    25
100
AcDbLine
 10
-150.0
 20
3.3466401061
 30
0.0
 11
-150.0
 21
28.3
 31
0.0
  0
LINE
  5
9C
330
1B
100
AcDbEntity
 67
     1
  8
0
  6
Continuous
 62
     7
370
    25
100
AcDbLine
 10
150.0
 20
3.3466401061
 30
0.0
 11
170.0
 21
3.3466401061
 31
0.0
  0
LINE
  5
9D
330
1B
100
AcDbEntity
 67
     1
  8
0
  6
Continuous
 62
     7
370
    25
100
AcDbLine
 10
170.0
 20
28.3
 30
0.0
 11
150.0
 21
28.3
 31
0.0
  0
LINE
  5
9E
330
1B
100
AcDbEntity
 67
     1
  8
0
  6
Continuous
 62
     7
370
    25
100
AcDbLine
 10
150.0
 20
3.3466401061
 30
0.0
 11
150.0
 21
28.3
 31
0.0
  0
VIEWPORT
  5
19C
330
1B
100
AcDbEntity
 67
     1
  8
0
100
AcDbViewport
 10
0.0
 20
0.0
 30
0.0
 40
205.6
 41
156.0
 68
     1
 69
     1
 12
11.1
 22
0.0
 13
0.0
 23
0.0
 14
10.0
 24
10.0
 15
10.0
 25
10.0
 16
0.0
 26
0.0
 36
1.0
 17
0.0
 27
0.0
 37
0.0
 42
50.0
 43
0.0
 44
0.0
 45
26.6231906615
 50
0.0
 51
0.0
 72
   100
 90
   557152
  1

281
     0
 71
     1
 74
     0
110
0.0
120
0.0
130
0.0
111
1.0
121
0.0
131
0.0
112
0.0
122
1.0
132
0.0
 79
     0
146
0.0
  0
ENDSEC
  0
SECTION
  2
OBJECTS
  0
DICTIONARY
  5
C
330
0
100
AcDbDictionary
281
     1
  3
ACAD_GROUP
350
D
  3
ACAD_LAYOUT
350
1A
  3
ACAD_MLINESTYLE
350
17
  3
ACAD_PLOTSETTINGS
350
19
  3
ACAD_PLOTSTYLENAME
350
E
  3
ACAD_SCALELIST
350
47
  0
DICTIONARY
  5
D
102
{ACAD_REACTORS
330
C
102
}
330
C
100
AcDbDictionary
281
     1
  0
DICTIONARY
  5
1A
102
{ACAD_REACTORS
330
C
102
}
330
C
100
AcDbDictionary
281
     1
  3
_Back
350
B4
  3
_Bottom
350
EE
  3
_Dimetric
350
175
  3
_Front
350
26
  3
_Isometric
350
114
  3
_Left
350
E0
  3
_Top
350
1E
  3
_Trimetric
350
144
  3
Model
350
22
  0
DICTIONARY
  5
17
102
{ACAD_REACTORS
330
C
102
}
330
C
100
AcDbDictionary
281
     1
  3
Standard
350
18
  0
DICTIONARY
  5
19
102
{ACAD_REACTORS
330
C
102
}
330
C
100
AcDbDictionary
281
     1
  0
ACDBDICTIONARYWDFLT
  5
E
102
{ACAD_REACTORS
330
C
102
}
330
C
100
AcDbDictionary
281
     1
  3
Normal
350
F
100
AcDbDictionaryWithDefault
340
F
  0
DICTIONARY
  5
47
102
{ACAD_REACTORS
330
C
102
}
330
C
100
AcDbDictionary
281
     1
  3
A0
350
48
  3
A1
350
49
  3
A2
350
4A
  3
A3
350
4B
  3
A4
350
4C
  3
A5
350
4D
  3
A6
350
4E
  3
A7
350
4F
  3
A8
350
50
  3
A9
350
51
  3
B0
350
52
  3
B1
350
53
  3
B2
350
54
  3
B3
350
55
  3
B4
350
56
  3
B5
350
57
  3
B6
350
58
  3
B7
350
59
  3
B8
350
5A
  3
B9
350
5B
  3
C0
350
5C
  3
C1
350
5D
  3
C2
350
5E
  3
C3
350
5F
  3
C4
350
60
  3
C5
350
61
  3
C6
350
62
  3
C7
350
63
  3
C8
350
64
  3
C9
350
65
  3
D0
350
66
  3
D1
350
67
  3
D2
350
68
  0
LAYOUT
  5
B4
102
{ACAD_REACTORS
330
1A
102
}
330
1A
100
AcDbPlotSettings
  1

  2
none_device
  4
ISO_A4_(210.00_x_297.00_MM)
  6

 40
7.5
 41
20.0
 42
7.5
 43
20.0
 44
210.0
 45
297.0
 46
0.0
 47
0.0
 48
0.0
 49
0.0
140
0.0
141
0.0
142
1.0
143
1.3307392996
 70
   688
 72
     1
 73
     1
 74
     1
  7

 75
     0
147
0.7514619883
148
171.0
149
6.1
100
AcDbLayout
  1
_Back
 70
     1
 71
     3
 10
0.0
 20
0.0
 11
0.0
 21
0.0
 12
0.0
 22
0.0
 32
0.0
 14
0.0
 24
0.0
 34
0.0
 15
0.0
 25
0.0
 35
0.0
146
0.0
 13
0.0
 23
0.0
 33
0.0
 16
1.0
 26
0.0
 36
0.0
 17
0.0
 27
1.0
 37
0.0
 76
     0
330
B3
331
1A0
  0
LAYOUT
  5
EE
102
{ACAD_REACTORS
330
1A
102
}
330
1A
100
AcDbPlotSettings
  1

  2
none_device
  4
ISO_A4_(210.00_x_297.00_MM)
  6

 40
7.5
 41
20.0
 42
7.5
 43
20.0
 44
210.0
 45
297.0
 46
0.0
 47
0.0
 48
0.0
 49
0.0
140
0.0
141
0.0
142
1.0
143
1.3307392996
 70
   688
 72
     1
 73
     1
 74
     1
  7

 75
     0
147
0.7514619883
148
171.0
149
6.1
100
AcDbLayout
  1
_Bottom
 70
     1
 71
     5
 10
0.0
 20
0.0
 11
0.0
 21
0.0
 12
0.0
 22
0.0
 32
0.0
 14
0.0
 24
0.0
 34
0.0
 15
0.0
 25
0.0
 35
0.0
146
0.0
 13
0.0
 23
0.0
 33
0.0
 16
1.0
 26
0.0
 36
0.0
 17
0.0
 27
1.0
 37
0.0
 76
     0
330
ED
331
1A4
  0
LAYOUT
  5
175
102
{ACAD_REACTORS
330
1A
102
}
330
1A
100
AcDbPlotSettings
  1

  2
none_device
  4
ISO_A4_(210.00_x_297.00_MM)
  6

 40
7.5
 41
20.0
 42
7.5
 43
20.0
 44
210.0
 45
297.0
 46
0.0
 47
0.0
 48
0.0
 49
0.0
140
0.0
141
0.0
142
1.0
143
1.3307392996
 70
   688
 72
     1
 73
     1
 74
     1
  7

 75
     0
147
0.7514619883
148
171.0
149
6.1
100
AcDbLayout
  1
_Dimetric
 70
     1
 71
     8
 10
0.0
 20
0.0
 11
0.0
 21
0.0
 12
0.0
 22
0.0
 32
0.0
 14
0.0
 24
0.0
 34
0.0
 15
0.0
 25
0.0
 35
0.0
146
0.0
 13
0.0
 23
0.0
 33
0.0
 16
1.0
 26
0.0
 36
0.0
 17
0.0
 27
1.0
 37
0.0
 76
     0
330
174
331
1AA
  0
LAYOUT
  5
26
102
{ACAD_REACTORS
330
1A
102
}
330
1A
100
AcDbPlotSettings
  1

  2
none_device
  4
ISO_A4_(210.00_x_297.00_MM)
  6

 40
7.5
 41
20.0
 42
7.5
 43
20.0
 44
210.0
 45
297.0
 46
0.0
 47
0.0
 48
0.0
 49
0.0
140
0.0
141
0.0
142
1.0
143
1.3307392996
 70
   688
 72
     1
 73
     1
 74
     1
  7

 75
     0
147
0.7514619883
148
171.0
149
6.1
100
AcDbLayout
  1
_Front
 70
     1
 71
     2
 10
0.0
 20
0.0
 11
0.0
 21
0.0
 12
0.0
 22
0.0
 32
0.0
 14
0.0
 24
0.0
 34
0.0
 15
0.0
 25
0.0
 35
0.0
146
0.0
 13
0.0
 23
0.0
 33
0.0
 16
1.0
 26
0.0
 36
0.0
 17
0.0
 27
1.0
 37
0.0
 76
     0
330
23
331
19E
  0
LAYOUT
  5
114
102
{ACAD_REACTORS
330
1A
102
}
330
1A
100
AcDbPlotSettings
  1

  2
none_device
  4
ISO_A4_(210.00_x_297.00_MM)
  6

 40
7.5
 41
20.0
 42
7.5
 43
20.0
 44
210.0
 45
297.0
 46
0.0
 47
0.0
 48
0.0
 49
0.0
140
0.0
141
0.0
142
1.0
143
1.3307392996
 70
   688
 72
     1
 73
     1
 74
     1
  7

 75
     0
147
0.7514619883
148
171.0
149
6.1
100
AcDbLayout
  1
_Isometric
 70
     1
 71
     6
 10
0.0
 20
0.0
 11
0.0
 21
0.0
 12
0.0
 22
0.0
 32
0.0
 14
0.0
 24
0.0
 34
0.0
 15
0.0
 25
0.0
 35
0.0
146
0.0
 13
0.0
 23
0.0
 33
0.0
 16
1.0
 26
0.0
 36
0.0
 17
0.0
 27
1.0
 37
0.0
 76
     0
330
113
331
1A6
  0
LAYOUT
  5
E0
102
{ACAD_REACTORS
330
1A
102
}
330
1A
100
AcDbPlotSettings
  1

  2
none_device
  4
ISO_A4_(210.00_x_297.00_MM)
  6

 40
7.5
 41
20.0
 42
7.5
 43
20.0
 44
210.0
 45
297.0
 46
0.0
 47
0.0
 48
0.0
 49
0.0
140
0.0
141
0.0
142
1.0
143
1.3307392996
 70
   688
 72
     1
 73
     1
 74
     1
  7

 75
     0
147
0.7514619883
148
171.0
149
6.1
100
AcDbLayout
  1
_Left
 70
     1
 71
     4
 10
0.0
 20
0.0
 11
0.0
 21
0.0
 12
0.0
 22
0.0
 32
0.0
 14
0.0
 24
0.0
 34
0.0
 15
0.0
 25
0.0
 35
0.0
146
0.0
 13
0.0
 23
0.0
 33
0.0
 16
1.0
 26
0.0
 36
0.0
 17
0.0
 27
1.0
 37
0.0
 76
     0
330
DF
331
1A2
  0
LAYOUT
  5
1E
102
{ACAD_REACTORS
330
1A
102
}
330
1A
100
AcDbPlotSettings
  1

  2
none_device
  4
ISO_A4_(210.00_x_297.00_MM)
  6

 40
7.5
 41
20.0
 42
7.5
 43
20.0
 44
210.0
 45
297.0
 46
0.0
 47
0.0
 48
0.0
 49
0.0
140
0.0
141
0.0
142
1.0
143
1.3307392996
 70
   688
 72
     1
 73
     1
 74
     1
  7

 75
     0
147
0.7514619883
148
171.0
149
6.1
100
AcDbLayout
  1
_Top
 70
     1
 71
     1
 10
-197.6147859922
 20
-16.0805447471
 11
197.6147859922
 21
263.3747081712
 12
0.0
 22
0.0
 32
0.0
 14
-171.0
 24
-6.1
 34
0.0
 15
171.0
 25
28.3
 35
0.0
146
0.0
 13
0.0
 23
0.0
 33
0.0
 16
1.0
 26
0.0
 36
0.0
 17
0.0
 27
1.0
 37
0.0
 76
     0
330
1B
331
19C
  0
LAYOUT
  5
144
102
{ACAD_REACTORS
330
1A
102
}
330
1A
100
AcDbPlotSettings
  1

  2
none_device
  4
ISO_A4_(210.00_x_297.00_MM)
  6

 40
7.5
 41
20.0
 42
7.5
 43
20.0
 44
210.0
 45
297.0
 46
0.0
 47
0.0
 48
0.0
 49
0.0
140
0.0
141
0.0
142
1.0
143
1.3307392996
 70
   688
 72
     1
 73
     1
 74
     1
  7

 75
     0
147
0.7514619883
148
171.0
149
6.1
100
AcDbLayout
  1
_Trimetric
 70
     1
 71
     7
 10
0.0
 20
0.0
 11
0.0
 21
0.0
 12
0.0
 22
0.0
 32
0.0
 14
0.0
 24
0.0
 34
0.0
 15
0.0
 25
0.0
 35
0.0
146
0.0
 13
0.0
 23
0.0
 33
0.0
 16
1.0
 26
0.0
 36
0.0
 17
0.0
 27
1.0
 37
0.0
 76
     0
330
143
331
1A8
  0
LAYOUT
  5
22
102
{ACAD_REACTORS
330
1A
102
}
330
1A
100
AcDbPlotSettings
  1

  2
none_device
  4
ANSI_A_(11.00_x_8.50_Inches)
  6

 40
6.35
 41
19.05
 42
6.35000508
 43
19.05000254
 44
279.4
 45
215.9
 46
44.0963172274
 47
88.89999873
 48
0.0
 49
0.0
140
0.0
141
0.0
142
0.3165697674
143
1.0
 70
  1696
 72
     0
 73
     0
 74
     0
  7

 75
     0
147
0.0179189148
148
-1300.4909072572
149
0.0
100
AcDbLayout
  1
Model
 70
     1
 71
     0
 10
0.0
 20
0.0
 11
420.0
 21
297.0
 12
0.0
 22
0.0
 32
0.0
 14
-6.1
 24
-6.1
 34
0.0
 15
28.3
 25
6.1
 35
0.0
146
0.0
 13
0.0
 23
0.0
 33
0.0
 16
1.0
 26
0.0
 36
0.0
 17
0.0
 27
1.0
 37
0.0
 76
     0
330
1F
331
29
  0
MLINESTYLE
  5
18
102
{ACAD_REACTORS
330
17
102
}
330
17
100
AcDbMlineStyle
  2
Standard
 70
     0
  3

 62
   256
 51
90.0
 52
90.0
 71
     2
 49
0.5
 62
   256
  6
BYLAYER
 49
-0.5
 62
   256
  6
BYLAYER
  0
ACDBPLACEHOLDER
  5
F
102
{ACAD_REACTORS
330
E
102
}
330
E
  0
SCALE
  5
48
102
{ACAD_REACTORS
330
47
102
}
330
47
100
AcDbScale
 70
     0
300
1:1
140
1.0
141
1.0
290
     1
  0
SCALE
  5
49
102
{ACAD_REACTORS
330
47
102
}
330
47
100
AcDbScale
 70
     0
300
1:2
140
1.0
141
2.0
290
     0
  0
SCALE
  5
4A
102
{ACAD_REACTORS
330
47
102
}
330
47
100
AcDbScale
 70
     0
300
1:4
140
1.0
141
4.0
290
     0
  0
SCALE
  5
4B
102
{ACAD_REACTORS
330
47
102
}
330
47
100
AcDbScale
 70
     0
300
1:5
140
1.0
141
5.0
290
     0
  0
SCALE
  5
4C
102
{ACAD_REACTORS
330
47
102
}
330
47
100
AcDbScale
 70
     0
300
1:8
140
1.0
141
8.0
290
     0
  0
SCALE
  5
4D
102
{ACAD_REACTORS
330
47
102
}
330
47
100
AcDbScale
 70
     0
300
1:10
140
1.0
141
10.0
290
     0
  0
SCALE
  5
4E
102
{ACAD_REACTORS
330
47
102
}
330
47
100
AcDbScale
 70
     0
300
1:16
140
1.0
141
16.0
290
     0
  0
SCALE
  5
4F
102
{ACAD_REACTORS
330
47
102
}
330
47
100
AcDbScale
 70
     0
300
1:20
140
1.0
141
20.0
290
     0
  0
SCALE
  5
50
102
{ACAD_REACTORS
330
47
102
}
330
47
100
AcDbScale
 70
     0
300
1:30
140
1.0
141
30.0
290
     0
  0
SCALE
  5
51
102
{ACAD_REACTORS
330
47
102
}
330
47
100
AcDbScale
 70
     0
300
1:40
140
1.0
141
40.0
290
     0
  0
SCALE
  5
52
102
{ACAD_REACTORS
330
47
102
}
330
47
100
AcDbScale
 70
     0
300
1:50
140
1.0
141
50.0
290
     0
  0
SCALE
  5
53
102
{ACAD_REACTORS
330
47
102
}
330
47
100
AcDbScale
 70
     0
300
1:100
140
1.0
141
100.0
290
     0
  0
SCALE
  5
54
102
{ACAD_REACTORS
330
47
102
}
330
47
100
AcDbScale
 70
     0
300
2:1
140
2.0
141
1.0
290
     0
  0
SCALE
  5
55
102
{ACAD_REACTORS
330
47
102
}
330
47
100
AcDbScale
 70
     0
300
4:1
140
4.0
141
1.0
290
     0
  0
SCALE
  5
56
102
{ACAD_REACTORS
330
47
102
}
330
47
100
AcDbScale
 70
     0
300
8:1
140
8.0
141
1.0
290
     0
  0
SCALE
  5
57
102
{ACAD_REACTORS
330
47
102
}
330
47
100
AcDbScale
 70
     0
300
10:1
140
10.0
141
1.0
290
     0
  0
SCALE
  5
58
102
{ACAD_REACTORS
330
47
102
}
330
47
100
AcDbScale
 70
     0
300
100:1
140
100.0
141
1.0
290
     0
  0
SCALE
  5
59
102
{ACAD_REACTORS
330
47
102
}
330
47
100
AcDbScale
 70
     0
300
1/128" = 1'-0"
140
0.0078125
141
12.0
290
     0
  0
SCALE
  5
5A
102
{ACAD_REACTORS
330
47
102
}
330
47
100
AcDbScale
 70
     0
300
1/64" = 1'-0"
140
0.015625
141
12.0
290
     0
  0
SCALE
  5
5B
102
{ACAD_REACTORS
330
47
102
}
330
47
100
AcDbScale
 70
     0
300
1/32" = 1'-0"
140
0.03125
141
12.0
290
     0
  0
SCALE
  5
5C
102
{ACAD_REACTORS
330
47
102
}
330
47
100
AcDbScale
 70
     0
300
1/16" = 1'-0"
140
0.0625
141
12.0
290
     0
  0
SCALE
  5
5D
102
{ACAD_REACTORS
330
47
102
}
330
47
100
AcDbScale
 70
     0
300
3/32" = 1'-0"
140
0.09375
141
12.0
290
     0
  0
SCALE
  5
5E
102
{ACAD_REACTORS
330
47
102
}
330
47
100
AcDbScale
 70
     0
300
1/8" = 1'-0"
140
0.125
141
12.0
290
     0
  0
SCALE
  5
5F
102
{ACAD_REACTORS
330
47
102
}
330
47
100
AcDbScale
 70
     0
300
3/16" = 1'-0"
140
0.1875
141
12.0
290
     0
  0
SCALE
  5
60
102
{ACAD_REACTORS
330
47
102
}
330
47
100
AcDbScale
 70
     0
300
1/4" = 1'-0"
140
0.25
141
12.0
290
     0
  0
SCALE
  5
61
102
{ACAD_REACTORS
330
47
102
}
330
47
100
AcDbScale
 70
     0
300
3/8" = 1'-0"
140
0.375
141
12.0
290
     0
  0
SCALE
  5
62
102
{ACAD_REACTORS
330
47
102
}
330
47
100
AcDbScale
 70
     0
300
1/2" = 1'-0"
140
0.5
141
12.0
290
     0
  0
SCALE
  5
63
102
{ACAD_REACTORS
330
47
102
}
330
47
100
AcDbScale
 70
     0
300
3/4" = 1'-0"
140
0.75
141
12.0
290
     0
  0
SCALE
  5
64
102
{ACAD_REACTORS
330
47
102
}
330
47
100
AcDbScale
 70
     0
300
1" = 1'-0"
140
1.0
141
12.0
290
     0
  0
SCALE
  5
65
102
{ACAD_REACTORS
330
47
102
}
330
47
100
AcDbScale
 70
     0
300
1-1/2" = 1'-0"
140
1.5
141
12.0
290
     0
  0
SCALE
  5
66
102
{ACAD_REACTORS
330
47
102
}
330
47
100
AcDbScale
 70
     0
300
3" = 1'-0"
140
3.0
141
12.0
290
     0
  0
SCALE
  5
67
102
{ACAD_REACTORS
330
47
102
}
330
47
100
AcDbScale
 70
     0
300
6" = 1'-0"
140
6.0
141
12.0
290
     0
  0
SCALE
  5
68
102
{ACAD_REACTORS
330
47
102
}
330
47
100
AcDbScale
 70
     0
300
1'-0" = 1'-0"
140
12.0
141
12.0
290
     0
  0
ENDSEC
  0
EOF
